  0
SECTION
  2
HEADER
  9
$ACADVER
  1
AC1015
  9
$ACADMAINTVER
 70
     6
  9
$DWGCODEPAGE
  3
ANSI_1254
  9
$INSBASE
 10
0.0
 20
0.0
 30
0.0
  9
$EXTMIN
 10
0.0
 20
0.0
 30
0.0
  9
$EXTMAX
 10
279.4
 20
215.9
 30
0.0
  9
$LIMMIN
 10
0.0
 20
0.0
  9
$LIMMAX
 10
279.4
 20
215.9
  9
$ORTHOMODE
 70
     0
  9
$REGENMODE
 70
     1
  9
$FILLMODE
 70
     1
  9
$QTEXTMODE
 70
     0
  9
$MIRRTEXT
 70
     1
  9
$LTSCALE
 40
1.0
  9
$ATTMODE
 70
     1
  9
$TEXTSIZE
 40
3.5
  9
$TRACEWID
 40
1.0
  9
$TEXTSTYLE
  7
Standard
  9
$CLAYER
  8
0
  9
$CELTYPE
  6
ByLayer
  9
$CECOLOR
 62
   256
  9
$CELTSCALE
 40
1.0
  9
$DISPSILH
 70
     0
  9
$DIMSCALE
 40
1.0
  9
$DIMASZ
 40
3.5
  9
$DIMEXO
 40
1.0
  9
$DIMDLI
 40
3.75
  9
$DIMRND
 40
0.0
  9
$DIMDLE
 40
0.0
  9
$DIMEXE
 40
1.0
  9
$DIMTP
 40
0.0
  9
$DIMTM
 40
0.0
  9
$DIMTXT
 40
3.5
  9
$DIMCEN
 40
2.5
  9
$DIMTSZ
 40
0.0
  9
$DIMTOL
 70
     0
  9
$DIMLIM
 70
     0
  9
$DIMTIH
 70
     1
  9
$DIMTOH
 70
     1
  9
$DIMSE1
 70
     0
  9
$DIMSE2
 70
     0
  9
$DIMTAD
 70
     1
  9
$DIMZIN
 70
     0
  9
$DIMBLK
  1

  9
$DIMASO
 70
     1
  9
$DIMSHO
 70
     1
  9
$DIMPOST
  1

  9
$DIMAPOST
  1

  9
$DIMALT
 70
     0
  9
$DIMALTD
 70
     3
  9
$DIMALTF
 40
0.0393700787
  9
$DIMLFAC
 40
1.0
  9
$DIMTOFL
 70
     1
  9
$DIMTVP
 40
0.0
  9
$DIMTIX
 70
     0
  9
$DIMSOXD
 70
     0
  9
$DIMSAH
 70
     0
  9
$DIMBLK1
  1

  9
$DIMBLK2
  1

  9
$DIMSTYLE
  2
ISO-25
  9
$DIMCLRD
 70
     0
  9
$DIMCLRE
 70
     0
  9
$DIMCLRT
 70
     0
  9
$DIMTFAC
 40
1.0
  9
$DIMGAP
 40
1.524
  9
$DIMJUST
 70
     0
  9
$DIMSD1
 70
     0
  9
$DIMSD2
 70
     0
  9
$DIMTOLJ
 70
     0
  9
$DIMTZIN
 70
     0
  9
$DIMALTZ
 70
     0
  9
$DIMALTTZ
 70
     0
  9
$DIMUPT
 70
     0
  9
$DIMDEC
 70
     2
  9
$DIMTDEC
 70
     2
  9
$DIMALTU
 70
     2
  9
$DIMALTTD
 70
     3
  9
$DIMTXSTY
  7
Standard
  9
$DIMAUNIT
 70
     0
  9
$DIMADEC
 70
     2
  9
$DIMALTRND
 40
0.0
  9
$DIMAZIN
 70
     0
  9
$DIMDSEP
 70
    44
  9
$DIMATFIT
 70
     3
  9
$DIMFRAC
 70
     0
  9
$DIMLDRBLK
  1

  9
$DIMLUNIT
 70
     2
  9
$DIMLWD
 70
    -2
  9
$DIMLWE
 70
    -2
  9
$DIMTMOVE
 70
     0
  9
$LUNITS
 70
     2
  9
$LUPREC
 70
     2
  9
$SKETCHINC
 40
1.0
  9
$FILLETRAD
 40
10.0
  9
$AUNITS
 70
     0
  9
$AUPREC
 70
     2
  9
$MENU
  1
.
  9
$ELEVATION
 40
0.0
  9
$PELEVATION
 40
0.0
  9
$THICKNESS
 40
0.0
  9
$LIMCHECK
 70
     0
  9
$CHAMFERA
 40
0.0
  9
$CHAMFERB
 40
0.0
  9
$CHAMFERC
 40
0.0
  9
$CHAMFERD
 40
0.0
  9
$SKPOLY
 70
     0
  9
$TDCREATE
 40
2458985.663494907
  9
$TDUCREATE
 40
2458985.538494907
  9
$TDUPDATE
 40
2458985.663495162
  9
$TDUUPDATE
 40
2458985.538495162
  9
$TDINDWG
 40
0.0000000116
  9
$TDUSRTIMER
 40
0.0000000116
  9
$USRTIMER
 70
     1
  9
$ANGBASE
 50
0.0
  9
$ANGDIR
 70
     0
  9
$PDMODE
 70
     0
  9
$PDSIZE
 40
-1.0
  9
$PLINEWID
 40
0.0
  9
$SPLFRAME
 70
     0
  9
$SPLINETYPE
 70
     6
  9
$SPLINESEGS
 70
     8
  9
$HANDSEED
  5
C1
  9
$SURFTAB1
 70
     6
  9
$SURFTAB2
 70
     6
  9
$SURFTYPE
 70
     6
  9
$SURFU
 70
     6
  9
$SURFV
 70
     6
  9
$UCSBASE
  2

  9
$UCSNAME
  2

  9
$UCSORG
 10
0.0
 20
0.0
 30
0.0
  9
$UCSXDIR
 10
1.0
 20
0.0
 30
0.0
  9
$UCSYDIR
 10
0.0
 20
1.0
 30
0.0
  9
$UCSORTHOREF
  2

  9
$UCSORTHOVIEW
 70
     0
  9
$UCSORGTOP
 10
0.0
 20
0.0
 30
0.0
  9
$UCSORGBOTTOM
 10
0.0
 20
0.0
 30
0.0
  9
$UCSORGLEFT
 10
0.0
 20
0.0
 30
0.0
  9
$UCSORGRIGHT
 10
0.0
 20
0.0
 30
0.0
  9
$UCSORGFRONT
 10
0.0
 20
0.0
 30
0.0
  9
$UCSORGBACK
 10
0.0
 20
0.0
 30
0.0
  9
$PUCSBASE
  2

  9
$PUCSNAME
  2

  9
$PUCSORG
 10
0.0
 20
0.0
 30
0.0
  9
$PUCSXDIR
 10
1.0
 20
0.0
 30
0.0
  9
$PUCSYDIR
 10
0.0
 20
1.0
 30
0.0
  9
$PUCSORTHOREF
  2

  9
$PUCSORTHOVIEW
 70
     0
  9
$PUCSORGTOP
 10
0.0
 20
0.0
 30
0.0
  9
$PUCSORGBOTTOM
 10
0.0
 20
0.0
 30
0.0
  9
$PUCSORGLEFT
 10
0.0
 20
0.0
 30
0.0
  9
$PUCSORGRIGHT
 10
0.0
 20
0.0
 30
0.0
  9
$PUCSORGFRONT
 10
0.0
 20
0.0
 30
0.0
  9
$PUCSORGBACK
 10
0.0
 20
0.0
 30
0.0
  9
$USERI1
 70
     0
  9
$USERI2
 70
     0
  9
$USERI3
 70
     0
  9
$USERI4
 70
     0
  9
$USERI5
 70
     0
  9
$USERR1
 40
0.0
  9
$USERR2
 40
0.0
  9
$USERR3
 40
0.0
  9
$USERR4
 40
0.0
  9
$USERR5
 40
0.0
  9
$WORLDVIEW
 70
     1
  9
$SHADEDGE
 70
     3
  9
$SHADEDIF
 70
    70
  9
$TILEMODE
 70
     1
  9
$MAXACTVP
 70
    64
  9
$PINSBASE
 10
0.0
 20
0.0
 30
0.0
  9
$PLIMCHECK
 70
     0
  9
$PEXTMIN
 10
1.0000000000E+20
 20
1.0000000000E+20
 30
1.0000000000E+20
  9
$PEXTMAX
 10
-1.0000000000E+20
 20
-1.0000000000E+20
 30
-1.0000000000E+20
  9
$PLIMMIN
 10
0.0
 20
0.0
  9
$PLIMMAX
 10
420.0
 20
297.0
  9
$UNITMODE
 70
     0
  9
$VISRETAIN
 70
     1
  9
$PLINEGEN
 70
     0
  9
$PSLTSCALE
 70
     1
  9
$TREEDEPTH
 70
  3020
  9
$CMLSTYLE
  2
Standard
  9
$CMLJUST
 70
     0
  9
$CMLSCALE
 40
20.0
  9
$PROXYGRAPHICS
 70
     1
  9
$MEASUREMENT
 70
     1
  9
$CELWEIGHT
370
    -1
  9
$ENDCAPS
280
     0
  9
$JOINSTYLE
280
     0
  9
$LWDISPLAY
290
     1
  9
$INSUNITS
 70
     4
  9
$HYPERLINKBASE
  1

  9
$STYLESHEET
  1

  9
$XEDIT
290
     1
  9
$CEPSNTYPE
380
     0
  9
$PSTYLEMODE
290
     1
  9
$FINGERPRINTGUID
  2
{a762dbd9-5341-428b-b3a6-5f7ffca6e11c}
  9
$VERSIONGUID
  2
{FAEB1C32-E019-11D5-929B-00C0DF256EC4}
  9
$EXTNAMES
290
     1
  9
$PSVPSCALE
 40
0.0
  9
$OLESTARTUP
290
     0
  0
ENDSEC
  0
SECTION
  2
CLASSES
  0
CLASS
  1
ACDBDICTIONARYWDFLT
  2
AcDbDictionaryWithDefault
  3
ObjectDBX Classes
 90
        0
280
     0
281
     0
  0
CLASS
  1
VISUALSTYLE
  2
AcDbVisualStyle
  3
ObjectDBX Classes
 90
     4095
280
     0
281
     0
  0
CLASS
  1
MATERIAL
  2
AcDbMaterial
  3
ObjectDBX Classes
 90
     1153
280
     0
281
     0
  0
CLASS
  1
SCALE
  2
AcDbScale
  3
ObjectDBX Classes
 90
     1153
280
     0
281
     0
  0
CLASS
  1
TABLESTYLE
  2
AcDbTableStyle
  3
ObjectDBX Classes
 90
     4095
280
     0
281
     0
  0
CLASS
  1
MLEADERSTYLE
  2
AcDbMLeaderStyle
  3
ACDB_MLEADERSTYLE_CLASS
 90
     4095
280
     0
281
     0
  0
CLASS
  1
SUN
  2
AcDbSun
  3
SCENEOE
 90
     1153
280
     0
281
     0
  0
CLASS
  1
ACDBPLACEHOLDER
  2
AcDbPlaceHolder
  3
ObjectDBX Classes
 90
        0
280
     0
281
     0
  0
CLASS
  1
LAYOUT
  2
AcDbLayout
  3
ObjectDBX Classes
 90
        0
280
     0
281
     0
  0
ENDSEC
  0
SECTION
  2
TABLES
  0
TABLE
  2
VPORT
  5
8
330
0
100
AcDbSymbolTable
 70
     1
  0
VPORT
  5
29
330
8
100
AcDbSymbolTableRecord
100
AcDbViewportTableRecord
  2
*Active
 70
     0
 10
0.0
 20
0.0
 11
1.0
 21
1.0
 12
139.7
 22
107.95
 13
0.0
 23
0.0
 14
10.0
 24
10.0
 15
10.0
 25
10.0
 16
0.0
 26
0.0
 36
1.0
 17
0.0
 27
0.0
 37
0.0
 40
215.9
 41
1.2941176471
 42
50.0
 43
0.0
 44
0.0
 50
0.0
 51
0.0
 71
     0
 72
  2000
 73
     1
 74
     3
 75
     0
 76
     0
 77
     0
 78
     0
281
     0
 65
     1
110
0.0
120
0.0
130
0.0
111
1.0
121
0.0
131
0.0
112
0.0
122
1.0
132
0.0
 79
     0
146
0.0
  0
ENDTAB
  0
TABLE
  2
LTYPE
  5
5
330
0
100
AcDbSymbolTable
 70
     6
  0
LTYPE
  5
14
330
5
100
AcDbSymbolTableRecord
100
AcDbLinetypeTableRecord
  2
ByBlock
 70
     0
  3

 72
    65
 73
     0
 40
0.0
  0
LTYPE
  5
15
330
5
100
AcDbSymbolTableRecord
100
AcDbLinetypeTableRecord
  2
ByLayer
 70
     0
  3

 72
    65
 73
     0
 40
0.0
  0
LTYPE
  5
16
330
5
100
AcDbSymbolTableRecord
100
AcDbLinetypeTableRecord
  2
Continuous
 70
     0
  3
Solid line
 72
    65
 73
     0
 40
0.0
  0
LTYPE
  5
6E
330
5
100
AcDbSymbolTableRecord
100
AcDbLinetypeTableRecord
  2
HIDDEN
 70
     0
  3
Hidden __ __ __ __ __ __ __ __ __ __ __ __ __ __
 72
    65
 73
     2
 40
1.905
 49
1.27
 74
     0
 49
-0.635
 74
     0
  0
LTYPE
  5
6F
330
5
100
AcDbSymbolTableRecord
100
AcDbLinetypeTableRecord
  2
PHANTOM
 70
     0
  3
Phantom ______  __  __  ______  __  __  ______
 72
    65
 73
     6
 40
12.7
 49
6.35
 74
     0
 49
-1.27
 74
     0
 49
1.27
 74
     0
 49
-1.27
 74
     0
 49
1.27
 74
     0
 49
-1.27
 74
     0
  0
LTYPE
  5
70
330
5
100
AcDbSymbolTableRecord
100
AcDbLinetypeTableRecord
  2
CENTER
 70
     0
  3
Center ____ _ ____ _ ____ _ ____ _ ____ _ ____
 72
    65
 73
     4
 40
10.16
 49
6.35
 74
     0
 49
-1.27
 74
     0
 49
1.27
 74
     0
 49
-1.27
 74
     0
  0
LTYPE
  5
71
330
5
100
AcDbSymbolTableRecord
100
AcDbLinetypeTableRecord
  2
CENTERX2
 70
     0
  3
Center (2x) ________  __  ________  __  _____
 72
    65
 73
     4
 40
20.32
 49
12.7
 74
     0
 49
-2.54
 74
     0
 49
2.54
 74
     0
 49
-2.54
 74
     0
  0
LTYPE
  5
72
330
5
100
AcDbSymbolTableRecord
100
AcDbLinetypeTableRecord
  2
DOT2
 70
     0
  3
Dot (.5x) ........................................
 72
    65
 73
     2
 40
0.635
 49
0.0
 74
     0
 49
-0.635
 74
     0
  0
ENDTAB
  0
TABLE
  2
LAYER
  5
2
330
0
100
AcDbSymbolTable
 70
    17
  0
LAYER
  5
10
330
2
100
AcDbSymbolTableRecord
100
AcDbLayerTableRecord
  2
0
 70
     0
 62
     7
  6
Continuous
370
    -3
390
F
  0
LAYER
  5
73
330
2
100
AcDbSymbolTableRecord
100
AcDbLayerTableRecord
  2
FORMAT
 70
     0
 62
     7
  6
Continuous
370
    -3
390
F
  0
LAYER
  5
74
330
2
100
AcDbSymbolTableRecord
100
AcDbLayerTableRecord
  2
YARDIMCI_GEOMETRI
 70
     0
 62
    -6
  6
Continuous
290
     0
370
    -3
390
F
  0
LAYER
  5
75
330
2
100
AcDbSymbolTableRecord
100
AcDbLayerTableRecord
  2
SAYFA_CERCEVESI
 70
     0
 62
     7
  6
Continuous
370
    25
390
F
  0
LAYER
  5
76
330
2
100
AcDbSymbolTableRecord
100
AcDbLayerTableRecord
  2
ANTET
 70
     0
 62
     7
  6
Continuous
370
    -3
390
F
  0
LAYER
  5
77
330
2
100
AcDbSymbolTableRecord
100
AcDbLayerTableRecord
  2
OLCU
 70
     0
 62
   150
  6
Continuous
370
    -3
390
F
  0
LAYER
  5
78
330
2
100
AcDbSymbolTableRecord
100
AcDbLayerTableRecord
  2
METIN
 70
     0
 62
    96
  6
Continuous
370
    -3
390
F
  0
LAYER
  5
79
330
2
100
AcDbSymbolTableRecord
100
AcDbLayerTableRecord
  2
BALON
 70
     0
 62
     5
  6
Continuous
370
    -3
390
F
  0
LAYER
  5
7A
330
2
100
AcDbSymbolTableRecord
100
AcDbLayerTableRecord
  2
VURGU
 70
     0
 62
     7
  6
Continuous
370
    -3
390
F
  0
LAYER
  5
7B
330
2
100
AcDbSymbolTableRecord
100
AcDbLayerTableRecord
  2
SILIK
 70
     0
 62
     7
  6
Continuous
370
    -3
390
F
  0
LAYER
  5
7C
330
2
100
AcDbSymbolTableRecord
100
AcDbLayerTableRecord
  2
MODEL
 70
     0
 62
     7
  6
Continuous
370
    -3
390
F
  0
LAYER
  5
7D
330
2
100
AcDbSymbolTableRecord
100
AcDbLayerTableRecord
  2
DETAYLANDıRMA
 70
     0
 62
   190
  6
Continuous
370
    -3
390
F
  0
LAYER
  5
7E
330
2
100
AcDbSymbolTableRecord
100
AcDbLayerTableRecord
  2
TOLERANS
 70
     0
 62
   230
  6
Continuous
370
    -3
390
F
  0
LAYER
  5
7F
330
2
100
AcDbSymbolTableRecord
100
AcDbLayerTableRecord
  2
MERKEZ_CIZGILERI
 70
     0
 62
    30
  6
Continuous
370
    -3
390
F
  0
LAYER
  5
80
330
2
100
AcDbSymbolTableRecord
100
AcDbLayerTableRecord
  2
KESIT-DETAY_CIZGILERI
 70
     0
 62
     7
  6
Continuous
370
    -3
390
F
  0
LAYER
  5
81
330
2
100
AcDbSymbolTableRecord
100
AcDbLayerTableRecord
  2
\U+041E\U+0421\U+0415\U+0412\U+042B\U+0415
 70
     0
 62
     7
  6
Continuous
370
    -3
390
F
  0
LAYER
  5
82
330
2
100
AcDbSymbolTableRecord
100
AcDbLayerTableRecord
  2
\U+0412\U+041E\U+0414\U+042F\U+041D\U+042B\U+0415_\U+0417\U+041D\U+0410\U+041A\U+0418
 70
     0
 62
    11
  6
Continuous
370
    -3
390
F
  0
ENDTAB
  0
TABLE
  2
STYLE
  5
3
330
0
100
AcDbSymbolTable
 70
     1
  0
STYLE
  5
11
330
3
100
AcDbSymbolTableRecord
100
AcDbTextStyleTableRecord
  2
Standard
 70
     0
 40
0.0
 41
1.0
 50
0.0
 71
     0
 42
3.5
  3
txt
  4

  0
ENDTAB
  0
TABLE
  2
VIEW
  5
6
330
0
100
AcDbSymbolTable
 70
     0
  0
ENDTAB
  0
TABLE
  2
UCS
  5
7
330
0
100
AcDbSymbolTable
 70
     0
  0
ENDTAB
  0
TABLE
  2
APPID
  5
9
330
0
100
AcDbSymbolTable
 70
     1
  0
APPID
  5
12
330
9
100
AcDbSymbolTableRecord
100
AcDbRegAppTableRecord
  2
ACAD
 70
     0
  0
ENDTAB
  0
TABLE
  2
DIMSTYLE
  5
A
330
0
100
AcDbSymbolTable
 70
     1
100
AcDbDimStyleTable
  0
DIMSTYLE
105
27
330
A
100
AcDbSymbolTableRecord
100
AcDbDimStyleTableRecord
  2
ISO-25
 70
     0
 41
2.5
 42
0.625
 43
3.75
 44
1.25
 73
     0
 74
     0
 77
     1
 78
     8
140
2.5
141
2.5
143
0.0393700787
147
0.625
171
     3
172
     1
178
     0
271
     2
272
     2
274
     3
278
    44
283
     0
284
     8
340
11
  0
ENDTAB
  0
TABLE
  2
BLOCK_RECORD
  5
1
330
0
100
AcDbSymbolTable
 70
     1
  0
BLOCK_RECORD
  5
1F
330
1
100
AcDbSymbolTableRecord
100
AcDbBlockTableRecord
  2
*Model_Space
340
22
  0
BLOCK_RECORD
  5
1B
330
1
100
AcDbSymbolTableRecord
100
AcDbBlockTableRecord
  2
*Paper_Space
340
1E
  0
BLOCK_RECORD
  5
23
330
1
100
AcDbSymbolTableRecord
100
AcDbBlockTableRecord
  2
*Paper_Space0
340
26
  0
ENDTAB
  0
ENDSEC
  0
SECTION
  2
BLOCKS
  0
BLOCK
  5
20
330
1F
100
AcDbEntity
  8
0
100
AcDbBlockBegin
  2
*Model_Space
 70
     0
 10
0.0
 20
0.0
 30
0.0
  3
*Model_Space
  1

  0
ENDBLK
  5
21
330
1F
100
AcDbEntity
  8
0
100
AcDbBlockEnd
  0
BLOCK
  5
1C
330
1B
100
AcDbEntity
 67
     1
  8
0
100
AcDbBlockBegin
  2
*Paper_Space
 70
     0
 10
0.0
 20
0.0
 30
0.0
  3
*Paper_Space
  1

  0
ENDBLK
  5
1D
330
1B
100
AcDbEntity
 67
     1
  8
0
100
AcDbBlockEnd
  0
BLOCK
  5
24
330
23
100
AcDbEntity
  8
0
100
AcDbBlockBegin
  2
*Paper_Space0
 70
     0
 10
0.0
 20
0.0
 30
0.0
  3
*Paper_Space0
  1

  0
ENDBLK
  5
25
330
23
100
AcDbEntity
  8
0
100
AcDbBlockEnd
  0
ENDSEC
  0
SECTION
  2
ENTITIES
  0
CIRCLE
  5
83
330
1F
100
AcDbEntity
  8
0
  6
Continuous
 62
     7
370
    25
100
AcDbCircle
 10
145.9631833062
 20
101.325801841
 30
0.0
 40
112.5
  0
CIRCLE
  5
84
330
1F
100
AcDbEntity
  8
0
  6
Continuous
 62
     7
370
    25
100
AcDbCircle
 10
145.9631833062
 20
101.325801841
 30
0.0
 40
99.09999999999997
  0
CIRCLE
  5
85
330
1F
100
AcDbEntity
  8
0
  6
Continuous
 62
     7
370
    25
100
AcDbCircle
 10
145.9631833062
 20
101.325801841
 30
0.0
 40
119.0
  0
CIRCLE
  5
86
330
1F
100
AcDbEntity
  8
0
  6
Continuous
 62
     7
370
    25
100
AcDbCircle
 10
145.9631833062
 20
101.325801841
 30
0.0
 40
134.0
  0
LINE
  5
87
330
1F
100
AcDbEntity
  8
0
  6
Continuous
 62
     7
370
    25
100
AcDbLine
 10
279.9631833062
 20
277.7804474386
 30
0.0
 11
279.9631833062
 21
301.7804474386
 31
0.0
  0
LINE
  5
88
330
1F
100
AcDbEntity
  8
0
  6
Continuous
 62
     7
370
    25
100
AcDbLine
 10
11.9631833062
 20
301.7804474386
 30
0.0
 11
11.9631833062
 21
277.7804474386
 31
0.0
  0
LINE
  5
89
330
1F
100
AcDbEntity
  8
0
  6
Continuous
 62
     7
370
    25
100
AcDbLine
 10
264.9631833062
 20
301.7804474386
 30
0.0
 11
258.4631833062
 21
336.7804474386
 31
0.0
  0
LINE
  5
8A
330
1F
100
AcDbEntity
  8
0
  6
Continuous
 62
     7
370
    25
100
AcDbLine
 10
33.4631833062
 20
336.7804474386
 30
0.0
 11
26.9631833062
 21
301.7804474386
 31
0.0
  0
LINE
  5
8B
330
1F
100
AcDbEntity
  8
0
  6
Continuous
 62
     7
370
    25
100
AcDbLine
 10
258.4631833062
 20
336.7804474386
 30
0.0
 11
258.4631833062
 21
397.7804474386
 31
0.0
  0
LINE
  5
8C
330
1F
100
AcDbEntity
  8
0
  6
Continuous
 62
     7
370
    25
100
AcDbLine
 10
33.4631833062
 20
397.7804474386
 30
0.0
 11
33.4631833062
 21
336.7804474386
 31
0.0
  0
LINE
  5
8D
330
1F
100
AcDbEntity
  8
0
  6
Continuous
 62
     7
370
    25
100
AcDbLine
 10
279.9631833062
 20
277.7804474386
 30
0.0
 11
11.9631833062
 21
277.7804474386
 31
0.0
  0
LINE
  5
8E
330
1F
100
AcDbEntity
  8
0
  6
Continuous
 62
     7
370
    25
100
AcDbLine
 10
279.9631833062
 20
301.7804474386
 30
0.0
 11
11.9631833062
 21
301.7804474386
 31
0.0
  0
LINE
  5
8F
330
1F
100
AcDbEntity
  8
0
  6
Continuous
 62
     7
370
    25
100
AcDbLine
 10
258.4631833062
 20
336.7804474386
 30
0.0
 11
33.4631833062
 21
336.7804474386
 31
0.0
  0
LINE
  5
90
330
1F
100
AcDbEntity
  8
0
  6
Continuous
 62
     7
370
    25
100
AcDbLine
 10
258.4631833062
 20
397.7804474386
 30
0.0
 11
33.4631833062
 21
397.7804474386
 31
0.0
  0
LINE
  5
91
330
1F
100
AcDbEntity
  8
0
  6
Continuous
 62
     7
370
    25
100
AcDbLine
 10
-82.5013598504
 20
235.325801841
 30
0.0
 11
-106.5013598504
 21
235.325801841
 31
0.0
  0
LINE
  5
92
330
1F
100
AcDbEntity
  8
0
  6
Continuous
 62
     7
370
    25
100
AcDbLine
 10
-106.5013598504
 20
-32.674198159
 30
0.0
 11
-82.5013598504
 21
-32.674198159
 31
0.0
  0
LINE
  5
93
330
1F
100
AcDbEntity
  8
0
  6
Continuous
 62
     7
370
    25
100
AcDbLine
 10
-106.5013598504
 20
220.325801841
 30
0.0
 11
-141.5013598504
 21
213.825801841
 31
0.0
  0
LINE
  5
94
330
1F
100
AcDbEntity
  8
0
  6
Continuous
 62
     7
370
    25
100
AcDbLine
 10
-141.5013598504
 20
-11.174198159
 30
0.0
 11
-106.5013598504
 21
-17.674198159
 31
0.0
  0
LINE
  5
95
330
1F
100
AcDbEntity
  8
0
  6
Continuous
 62
     7
370
    25
100
AcDbLine
 10
-141.5013598504
 20
213.825801841
 30
0.0
 11
-202.5013598504
 21
213.825801841
 31
0.0
  0
LINE
  5
96
330
1F
100
AcDbEntity
  8
0
  6
Continuous
 62
     7
370
    25
100
AcDbLine
 10
-202.5013598504
 20
-11.174198159
 30
0.0
 11
-141.5013598504
 21
-11.174198159
 31
0.0
  0
LINE
  5
97
330
1F
100
AcDbEntity
  8
0
  6
Continuous
 62
     7
370
    25
100
AcDbLine
 10
-82.5013598504
 20
235.325801841
 30
0.0
 11
-82.5013598504
 21
-32.674198159
 31
0.0
  0
LINE
  5
98
330
1F
100
AcDbEntity
  8
0
  6
Continuous
 62
     7
370
    25
100
AcDbLine
 10
-106.5013598504
 20
235.325801841
 30
0.0
 11
-106.5013598504
 21
-32.674198159
 31
0.0
  0
LINE
  5
99
330
1F
100
AcDbEntity
  8
0
  6
Continuous
 62
     7
370
    25
100
AcDbLine
 10
-141.5013598504
 20
213.825801841
 30
0.0
 11
-141.5013598504
 21
-11.174198159
 31
0.0
  0
LINE
  5
9A
330
1F
100
AcDbEntity
  8
0
  6
Continuous
 62
     7
370
    25
100
AcDbLine
 10
-202.5013598504
 20
213.825801841
 30
0.0
 11
-202.5013598504
 21
-11.174198159
 31
0.0
  0
LINE
  5
9B
330
1F
100
AcDbEntity
  8
0
  6
Continuous
 62
     7
370
    25
100
AcDbLine
 10
11.9631833062
 20
-149.8776607208
 30
0.0
 11
11.9631833062
 21
-173.8776607208
 31
0.0
  0
LINE
  5
9C
330
1F
100
AcDbEntity
  8
0
  6
Continuous
 62
     7
370
    25
100
AcDbLine
 10
279.9631833062
 20
-173.8776607208
 30
0.0
 11
279.9631833062
 21
-149.8776607208
 31
0.0
  0
LINE
  5
9D
330
1F
100
AcDbEntity
  8
0
  6
Continuous
 62
     7
370
    25
100
AcDbLine
 10
26.9631833062
 20
-173.8776607208
 30
0.0
 11
33.4631833062
 21
-208.8776607208
 31
0.0
  0
LINE
  5
9E
330
1F
100
AcDbEntity
  8
0
  6
Continuous
 62
     7
370
    25
100
AcDbLine
 10
258.4631833062
 20
-208.8776607208
 30
0.0
 11
264.9631833062
 21
-173.8776607208
 31
0.0
  0
LINE
  5
9F
330
1F
100
AcDbEntity
  8
0
  6
Continuous
 62
     7
370
    25
100
AcDbLine
 10
33.4631833062
 20
-208.8776607208
 30
0.0
 11
33.4631833062
 21
-269.8776607208
 31
0.0
  0
LINE
  5
A0
330
1F
100
AcDbEntity
  8
0
  6
Continuous
 62
     7
370
    25
100
AcDbLine
 10
258.4631833062
 20
-269.8776607208
 30
0.0
 11
258.4631833062
 21
-208.8776607208
 31
0.0
  0
LINE
  5
A1
330
1F
100
AcDbEntity
  8
0
  6
Continuous
 62
     7
370
    25
100
AcDbLine
 10
11.9631833062
 20
-149.8776607208
 30
0.0
 11
279.9631833062
 21
-149.8776607208
 31
0.0
  0
LINE
  5
A2
330
1F
100
AcDbEntity
  8
0
  6
Continuous
 62
     7
370
    25
100
AcDbLine
 10
11.9631833062
 20
-173.8776607208
 30
0.0
 11
279.9631833062
 21
-173.8776607208
 31
0.0
  0
LINE
  5
A3
330
1F
100
AcDbEntity
  8
0
  6
Continuous
 62
     7
370
    25
100
AcDbLine
 10
33.4631833062
 20
-208.8776607208
 30
0.0
 11
258.4631833062
 21
-208.8776607208
 31
0.0
  0
LINE
  5
A4
330
1F
100
AcDbEntity
  8
0
  6
Continuous
 62
     7
370
    25
100
AcDbLine
 10
33.4631833062
 20
-269.8776607208
 30
0.0
 11
258.4631833062
 21
-269.8776607208
 31
0.0
  0
LINE
  5
A5
330
1F
100
AcDbEntity
  8
0
  6
Continuous
 62
     7
370
    25
100
AcDbLine
 10
395.6787775341
 20
-32.674198159
 30
0.0
 11
419.6787775341
 21
-32.674198159
 31
0.0
  0
LINE
  5
A6
330
1F
100
AcDbEntity
  8
0
  6
Continuous
 62
     7
370
    25
100
AcDbLine
 10
419.6787775341
 20
235.325801841
 30
0.0
 11
395.6787775341
 21
235.325801841
 31
0.0
  0
LINE
  5
A7
330
1F
100
AcDbEntity
  8
0
  6
Continuous
 62
     7
370
    25
100
AcDbLine
 10
419.6787775341
 20
-17.674198159
 30
0.0
 11
454.6787775341
 21
-11.174198159
 31
0.0
  0
LINE
  5
A8
330
1F
100
AcDbEntity
  8
0
  6
Continuous
 62
     7
370
    25
100
AcDbLine
 10
454.6787775341
 20
213.825801841
 30
0.0
 11
419.6787775341
 21
220.325801841
 31
0.0
  0
LINE
  5
A9
330
1F
100
AcDbEntity
  8
0
  6
Continuous
 62
     7
370
    25
100
AcDbLine
 10
454.6787775341
 20
-11.174198159
 30
0.0
 11
515.6787775341
 21
-11.174198159
 31
0.0
  0
LINE
  5
AA
330
1F
100
AcDbEntity
  8
0
  6
Continuous
 62
     7
370
    25
100
AcDbLine
 10
515.6787775341
 20
213.825801841
 30
0.0
 11
454.6787775341
 21
213.825801841
 31
0.0
  0
LINE
  5
AB
330
1F
100
AcDbEntity
  8
0
  6
Continuous
 62
     7
370
    25
100
AcDbLine
 10
395.6787775341
 20
101.325801841
 30
0.0
 11
395.6787775341
 21
235.325801841
 31
0.0
  0
LINE
  5
AC
330
1F
100
AcDbEntity
  8
0
  6
Continuous
 62
     7
370
    25
100
AcDbLine
 10
395.6787775341
 20
-32.674198159
 30
0.0
 11
395.6787775341
 21
101.325801841
 31
0.0
  0
LINE
  5
AD
330
1F
100
AcDbEntity
  8
0
  6
Continuous
 62
     7
370
    25
100
AcDbLine
 10
419.6787775341
 20
101.325801841
 30
0.0
 11
419.6787775341
 21
235.325801841
 31
0.0
  0
LINE
  5
AE
330
1F
100
AcDbEntity
  8
0
  6
Continuous
 62
     7
370
    25
100
AcDbLine
 10
419.6787775341
 20
-32.674198159
 30
0.0
 11
419.6787775341
 21
101.325801841
 31
0.0
  0
LINE
  5
AF
330
1F
100
AcDbEntity
  8
0
  6
Continuous
 62
     7
370
    25
100
AcDbLine
 10
454.6787775341
 20
101.325801841
 30
0.0
 11
454.6787775341
 21
213.825801841
 31
0.0
  0
LINE
  5
B0
330
1F
100
AcDbEntity
  8
0
  6
Continuous
 62
     7
370
    25
100
AcDbLine
 10
454.6787775341
 20
-11.174198159
 30
0.0
 11
454.6787775341
 21
101.325801841
 31
0.0
  0
LINE
  5
B1
330
1F
100
AcDbEntity
  8
0
  6
Continuous
 62
     7
370
    25
100
AcDbLine
 10
515.6787775341
 20
101.325801841
 30
0.0
 11
515.6787775341
 21
213.825801841
 31
0.0
  0
LINE
  5
B2
330
1F
100
AcDbEntity
  8
0
  6
Continuous
 62
     7
370
    25
100
AcDbLine
 10
515.6787775341
 20
-11.174198159
 30
0.0
 11
515.6787775341
 21
101.325801841
 31
0.0
  0
LINE
  5
B3
330
1F
100
AcDbEntity
  8
0
  6
Continuous
 62
     7
370
    25
100
AcDbLine
 10
491.7266915753
 20
-113.2331577909
 30
0.0
 11
448.5931779229
 21
-88.3327103804
 31
0.0
  0
LINE
  5
B4
330
1F
100
AcDbEntity
  8
0
  6
Continuous
 62
     7
370
    25
100
AcDbLine
 10
336.1023205013
 20
-283.193704416
 30
0.0
 11
379.2358341537
 21
-308.0941518266
 31
0.0
  0
LINE
  5
B5
330
1F
100
AcDbEntity
  8
0
  6
Continuous
 62
     7
370
    25
100
AcDbLine
 10
511.3950559117
 20
-118.2722323669
 30
0.0
 11
488.0166540726
 21
-111.0913987293
 31
0.0
  0
LINE
  5
B6
330
1F
100
AcDbEntity
  8
0
  6
Continuous
 62
     7
370
    25
100
AcDbLine
 10
375.525796651
 20
-305.9523927649
 30
0.0
 11
393.4353447994
 21
-322.6065853122
 31
0.0
  0
LINE
  5
B7
330
1F
100
AcDbEntity
  8
0
  6
Continuous
 62
     7
370
    25
100
AcDbLine
 10
544.1951180411
 20
-118.6971465485
 30
0.0
 11
527.2245552926
 21
-108.9002492067
 31
0.0
  0
LINE
  5
B8
330
1F
100
AcDbEntity
  8
0
  6
Continuous
 62
     7
370
    25
100
AcDbLine
 10
393.2354451194
 20
-341.0013443247
 30
0.0
 11
410.2060078679
 21
-350.7982416666
 31
0.0
  0
LWPOLYLINE
  5
B9
330
1F
100
AcDbEntity
  8
0
  6
Continuous
 62
     7
370
    25
100
AcDbPolyline
 90
      128
 70
   128
 43
0.0
 10
312.7982363286
 20
-231.6861636882
 10
312.8955718227
 20
-227.0871127841
 10
313.1873401089
 20
-222.3869353589
 10
313.6728271811
 20
-217.5971335342
 10
314.3508449712
 20
-212.7294287578
 10
315.219734256
 20
-207.795733119
 10
316.2773687179
 20
-202.8081201978
 10
317.5211601481
 20
-197.7787955186
 10
318.9480647805
 20
-192.7200666819
 10
320.5545907404
 20
-187.6443132447
 10
322.3368065896
 20
-182.5639564263
 10
324.2903509473
 20
-177.4914287111
 10
326.4104431629
 20
-172.4391434245
 10
328.6918950157
 20
-167.4194643552
 10
331.1291234106
 20
-162.444675499
 10
333.7161640413
 20
-157.5269509978
 10
336.4466859859
 20
-152.6783253477
 10
339.3140071997
 20
-147.910663948
 10
342.3111108671
 20
-143.2356340652
 10
345.4306625733
 20
-138.6646762807
 10
348.6650282524
 20
-134.2089764942
 10
352.0062928697
 20
-129.8794385498
 10
355.4462797907
 20
-125.6866575522
 10
358.976570791
 20
-121.6408939393
 10
362.588526657
 20
-117.7520483724
 10
366.2733083274
 20
-114.0296375084
 10
370.021898524
 20
-110.4827707105
 10
373.8251238184
 20
-107.120127756
 10
377.6736770809
 20
-103.9499375956
 10
381.558140257
 20
-100.9799582161
 10
385.4690074142
 20
-98.2174576546
 10
389.3967080052
 20
-95.6691962128
 10
393.3316302886
 20
-93.3414099137
 10
397.2641448501
 20
-91.2397952402
 10
401.1846281676
 20
-89.3694951957
 10
405.0834861616
 20
-87.7350867178
 10
408.951177673
 20
-86.3405694779
 10
412.7782378128
 20
-85.1893560934
 10
416.5553011234
 20
-84.2842637764
 10
420.273124498
 20
-83.6275074394
 10
423.9226097997
 20
-83.2206942752
 10
427.4948261266
 20
-83.0648198238
 10
430.9810316666
 20
-83.1602655361
 10
434.3726950906
 20
-83.5067978405
 10
437.6615164298
 20
-84.1035687144
 10
440.8394473874
 20
-84.9491177593
 10
443.8987110337
 20
-86.0413757752
 10
446.8318208379
 20
-87.3776698236
 10
449.6315989889
 20
-88.954729769
 10
452.2911939604
 20
-90.7686962816
 10
454.8040972777
 20
-92.8151302812
 10
457.1641594455
 20
-95.089023801
 10
459.365604996
 20
-97.5848122424
 10
461.4030466231
 20
-100.296387993
 10
463.2714983658
 20
-103.2171153724
 10
464.9663878095
 20
-106.3398468714
 10
466.4835672757
 20
-109.6569406427
 10
467.8193239721
 20
-113.160279202
 10
468.9703890781
 20
-116.8412892928
 10
469.9339457447
 20
-120.6909628665
 10
470.7076359871
 20
-124.6998791269
 10
471.2895664556
 20
-128.858227584
 10
471.678313069
 20
-133.1558320623
 10
471.8729244991
 20
-137.5821756036
 10
471.8729244991
 20
-142.1264262035
 10
471.678313069
 20
-146.7774633192
 10
471.2895664556
 20
-151.5239050836
 10
470.7076359871
 20
-156.3541361583
 10
469.9339457447
 20
-161.2563361584
 10
468.9703890781
 20
-166.2185085791
 10
467.8193239721
 20
-171.228510153
 10
466.4835672757
 20
-176.2740805666
 10
464.9663878095
 20
-181.3428724636
 10
463.2714983658
 20
-186.422481661
 10
461.4030466231
 20
-191.5004775038
 10
459.365604996
 20
-196.5644332852
 10
457.1641594455
 20
-201.6019566569
 10
454.8040972777
 20
-206.6007199551
 10
452.2911939604
 20
-211.5484903682
 10
449.6315989889
 20
-216.4331598731
 10
446.8318208379
 20
-221.2427748648
 10
443.8987110337
 20
-225.9655654096
 10
440.8394473874
 20
-230.5899740475
 10
437.6615164298
 20
-235.1046840758
 10
434.3726950905
 20
-239.4986472424
 10
430.9810316666
 20
-243.7611107832
 10
427.4948261266
 20
-247.8816437357
 10
423.9226097997
 20
-251.8501624651
 10
420.273124498
 20
-255.6569553412
 10
416.5553011234
 20
-259.2927065038
 10
412.7782378128
 20
-262.7485186607
 10
408.951177673
 20
-266.0159348604
 10
405.0834861616
 20
-269.086959188
 10
401.1846281676
 20
-271.9540763322
 10
397.2641448501
 20
-274.610269977
 10
393.3316302886
 20
-277.0490399715
 10
389.3967080052
 20
-279.2644182367
 10
385.4690074142
 20
-281.2509833709
 10
381.558140257
 20
-283.0038739162
 10
377.6736770809
 20
-284.5188002559
 10
373.8251238184
 20
-285.7920551111
 10
370.021898524
 20
-286.8205226141
 10
366.2733083274
 20
-287.6016859323
 10
362.588526657
 20
-288.1336334284
 10
358.976570791
 20
-288.4150633377
 10
355.4462797907
 20
-288.4452869539
 10
352.0062928697
 20
-288.2242303148
 10
348.6650282524
 20
-287.7524343832
 10
345.4306625733
 20
-287.0310537226
 10
342.3111108671
 20
-286.0618536724
 10
339.3140071997
 20
-284.8472060277
 10
336.4466859859
 20
-283.3900832346
 10
333.7161640413
 20
-281.6940511169
 10
331.1291234106
 20
-279.7632601493
 10
328.6918950157
 20
-277.6024353009
 10
326.4104431629
 20
-275.2168644723
 10
324.2903509473
 20
-272.6123855548
 10
322.3368065896
 20
-269.795372145
 10
320.5545907404
 20
-266.7727179466
 10
318.9480647805
 20
-263.5518199011
 10
317.5211601481
 20
-260.1405600856
 10
316.2773687179
 20
-256.5472864245
 10
315.219734256
 20
-252.7807922607
 10
314.3508449712
 20
-248.8502948365
 10
313.6728271811
 20
-244.7654127377
 10
313.1873401089
 20
-240.5361423554
 10
312.8955718227
 20
-236.1728334228
 10
312.7982363286
 20
-231.6861636882
  0
LWPOLYLINE
  5
BA
330
1F
100
AcDbEntity
  8
0
  6
Continuous
 62
     7
370
    25
100
AcDbPolyline
 90
      121
 70
   128
 43
0.0
 10
322.2734671965
 20
-226.216229339
 10
322.3695015646
 20
-221.925806458
 10
322.6573414454
 20
-217.5362644066
 10
323.1361978897
 20
-213.0596346145
 10
323.8047583854
 20
-208.5081872127
 10
324.6611904546
 20
-203.8943974022
 10
325.7031466765
 20
-199.2309112602
 10
326.9277711215
 20
-194.5305110781
 10
328.3317071792
 20
-189.8060803259
 10
329.9111067584
 20
-185.0705683401
 10
331.6616408346
 20
-180.3369548298
 10
333.5785113157
 20
-175.6182143007
 10
335.6564641929
 20
-170.9272804924
 10
337.8898039417
 20
-166.2770109285
 10
340.2724091332
 20
-161.6801516747
 10
342.7977492121
 20
-157.1493024027
 10
345.4589023968
 20
-152.6968818553
 10
348.2485746515
 20
-148.3350938078
 10
351.1591196783
 20
-144.0758936181
 10
354.1825598758
 20
-139.9309554578
 10
357.3106082043
 20
-135.9116403143
 10
360.5346909009
 20
-132.028964851
 10
363.8459709791
 20
-128.2935712116
 10
367.2353724503
 20
-124.7156978502
 10
370.6936052007
 20
-121.3051514692
 10
374.2111904546
 20
-118.071280139
 10
377.7784867554
 20
-115.0229476763
 10
381.3857163919
 20
-112.1685093484
 10
385.0229921984
 20
-109.5157889723
 10
388.6803446548
 20
-107.0720574702
 10
392.3477492121
 20
-104.8440129403
 10
396.0151537694
 20
-102.8377622978
 10
399.6725062258
 20
-101.0588045362
 10
403.3097820323
 20
-99.5120156552
 10
406.9170116688
 20
-98.2016352955
 10
410.4843079696
 20
-97.1312551186
 10
414.0018932235
 20
-96.3038089621
 10
417.4601259739
 20
-95.7215647985
 10
420.8495274451
 20
-95.3861185186
 10
424.1608075232
 20
-95.2983895573
 10
427.3848902199
 20
-95.4586183735
 10
430.5129385484
 20
-95.8663657912
 10
433.5363787458
 20
-96.5205142031
 10
436.4469237727
 20
-97.4192706339
 10
439.2365960273
 20
-98.5601716547
 10
441.8977492121
 20
-99.940090135
 10
444.423089291
 20
-101.5552438143
 10
446.8056944825
 20
-103.4012056685
 10
449.0390342313
 20
-105.4729160445
 10
451.1169871085
 20
-107.7646965282
 10
453.0338575895
 20
-110.2702655086
 10
454.7843916658
 20
-112.9827553953
 10
456.363791245
 20
-115.894731442
 10
457.7677273027
 20
-118.9982121248
 10
458.9923517477
 20
-122.2846910189
 10
460.0343079696
 20
-125.7451601141
 10
460.8907400388
 20
-129.370134505
 10
461.5593005345
 20
-133.1496783889
 10
462.0381569788
 20
-137.0734322987
 10
462.3259968596
 20
-141.1306414976
 10
462.4220312277
 20
-145.3101854574
 10
462.3259968596
 20
-149.6006083384
 10
462.0381569788
 20
-153.9901503898
 10
461.5593005345
 20
-158.4667801819
 10
460.8907400388
 20
-163.0182275837
 10
460.0343079696
 20
-167.6320173942
 10
458.9923517477
 20
-172.2955035361
 10
457.7677273027
 20
-176.9959037183
 10
456.363791245
 20
-181.7203344704
 10
454.7843916658
 20
-186.4558464562
 10
453.0338575895
 20
-191.1894599665
 10
451.1169871085
 20
-195.9082004957
 10
449.0390342313
 20
-200.599134304
 10
446.8056944825
 20
-205.2494038678
 10
444.423089291
 20
-209.8462631216
 10
441.8977492121
 20
-214.3771123937
 10
439.2365960273
 20
-218.829532941
 10
436.4469237727
 20
-223.1913209885
 10
433.5363787458
 20
-227.4505211783
 10
430.5129385484
 20
-231.5954593386
 10
427.3848902199
 20
-235.6147744821
 10
424.1608075232
 20
-239.4974499453
 10
420.8495274451
 20
-243.2328435848
 10
417.4601259739
 20
-246.8107169461
 10
414.0018932235
 20
-250.2212633272
 10
410.4843079696
 20
-253.4551346573
 10
406.9170116688
 20
-256.5034671201
 10
403.3097820323
 20
-259.357905448
 10
399.6725062258
 20
-262.0106258241
 10
396.0151537694
 20
-264.4543573262
 10
392.3477492121
 20
-266.6824018561
 10
388.6803446548
 20
-268.6886524986
 10
385.0229921984
 20
-270.4676102601
 10
381.3857163919
 20
-272.0143991411
 10
377.7784867554
 20
-273.3247795009
 10
374.2111904546
 20
-274.3951596778
 10
370.6936052007
 20
-275.2226058342
 10
367.2353724503
 20
-275.8048499978
 10
363.8459709791
 20
-276.1402962777
 10
360.5346909009
 20
-276.2280252391
 10
357.3106082043
 20
-276.0677964229
 10
354.1825598758
 20
-275.6600490051
 10
351.1591196783
 20
-275.0059005932
 10
348.2485746515
 20
-274.1071441624
 10
345.4589023968
 20
-272.9662431417
 10
342.7977492121
 20
-271.5863246613
 10
340.2724091332
 20
-269.9711709821
 10
337.8898039417
 20
-268.1252091279
 10
335.6564641929
 20
-266.0534987518
 10
333.5785113157
 20
-263.7617182681
 10
331.6616408346
 20
-261.2561492877
 10
329.9111067584
 20
-258.543659401
 10
328.3317071792
 20
-255.6316833543
 10
326.9277711215
 20
-252.5282026715
 10
325.7031466765
 20
-249.2417237774
 10
324.6611904546
 20
-245.7812546823
 10
323.8047583854
 20
-242.1562802914
 10
323.1361978897
 20
-238.3767364075
 10
322.6573414454
 20
-234.4529824977
 10
322.3695015646
 20
-230.3957732987
 10
322.2734671965
 20
-226.216229339
  0
LWPOLYLINE
  5
BB
330
1F
100
AcDbEntity
  8
0
  6
Continuous
 62
     7
370
    25
100
AcDbPolyline
 90
       66
 70
   128
 43
0.0
 10
491.7266915753
 20
-113.2331577909
 10
492.7651126413
 20
-113.8551771796
 10
495.4247076128
 20
-115.6691436922
 10
497.9376109301
 20
-117.7155776918
 10
500.2976730979
 20
-119.9894712115
 10
502.4991186484
 20
-122.485259653
 10
504.5365602755
 20
-125.1968354035
 10
506.4050120182
 20
-128.117562783
 10
508.0999014619
 20
-131.240294282
 10
509.6170809281
 20
-134.5573880533
 10
510.9528376245
 20
-138.0607266126
 10
512.1039027305
 20
-141.7417367034
 10
513.0674593971
 20
-145.5914102771
 10
513.8411496394
 20
-149.6003265375
 10
514.423080108
 20
-153.7586749946
 10
514.8118267214
 20
-158.0562794729
 10
515.0064381515
 20
-162.4826230142
 10
515.0064381515
 20
-167.0268736141
 10
514.8118267214
 20
-171.6779107298
 10
514.423080108
 20
-176.4243524942
 10
513.8411496394
 20
-181.2545835689
 10
513.0674593971
 20
-186.156783569
 10
512.1039027305
 20
-191.1189559897
 10
510.9528376245
 20
-196.1289575636
 10
509.6170809281
 20
-201.1745279772
 10
508.0999014619
 20
-206.2433198742
 10
506.4050120182
 20
-211.3229290716
 10
504.5365602755
 20
-216.4009249144
 10
502.4991186484
 20
-221.4648806958
 10
500.2976730979
 20
-226.5024040675
 10
497.9376109301
 20
-231.5011673657
 10
495.4247076128
 20
-236.4489377788
 10
492.7651126413
 20
-241.3336072837
 10
489.9653344903
 20
-246.1432222754
 10
487.032224686
 20
-250.8660128202
 10
483.9729610397
 20
-255.4904214581
 10
480.7950300822
 20
-260.0051314864
 10
477.5062087429
 20
-264.399094653
 10
474.1145453189
 20
-268.6615581938
 10
470.628339779
 20
-272.7820911462
 10
467.0561234521
 20
-276.7506098757
 10
463.4066381504
 20
-280.5574027517
 10
459.6888147758
 20
-284.1931539144
 10
455.9117514652
 20
-287.6489660713
 10
452.0846913254
 20
-290.916382271
 10
448.216999814
 20
-293.9874065986
 10
444.31814182
 20
-296.8545237428
 10
440.3976585025
 20
-299.5107173876
 10
436.465143941
 20
-301.9494873821
 10
432.5302216576
 20
-304.1648656473
 10
428.6025210665
 20
-306.1514307815
 10
424.6916539094
 20
-307.9043213268
 10
420.8071907333
 20
-309.4192476664
 10
416.9586374707
 20
-310.6925025217
 10
413.1554121764
 20
-311.7209700247
 10
409.4068219798
 20
-312.5021333429
 10
405.7220403094
 20
-313.034080839
 10
402.1100844434
 20
-313.3155107482
 10
398.5797934431
 20
-313.3457343645
 10
395.139806522
 20
-313.1246777254
 10
391.7985419048
 20
-312.6528817938
 10
388.5641762256
 20
-311.9315011332
 10
385.4446245195
 20
-310.962301083
 10
382.4475208521
 20
-309.7476534383
 10
379.5801996383
 20
-308.2905306452
 10
379.2358341537
 20
-308.0941518266
  0
LWPOLYLINE
  5
BC
330
1F
100
AcDbEntity
  8
0
  6
Continuous
 62
     7
370
    25
100
AcDbPolyline
 90
       25
 70
   128
 43
0.0
 10
404.7691355232
 20
-258.2302525057
 10
405.1927489
 20
-255.4924740481
 10
406.0491809691
 20
-250.8786842376
 10
407.091137191
 20
-246.2151980956
 10
408.3157616361
 20
-241.5147979135
 10
409.7196976938
 20
-236.7903671613
 10
411.299097273
 20
-232.0548551755
 10
413.0496313492
 20
-227.3212416652
 10
414.9665018303
 20
-222.6025011361
 10
417.0444547074
 20
-217.9115673278
 10
419.2777944563
 20
-213.2612977639
 10
421.6603996477
 20
-208.6644385101
 10
424.1857397267
 20
-204.1335892381
 10
426.8468929114
 20
-199.6811686907
 10
429.6365651661
 20
-195.3193806432
 10
432.5471101929
 20
-191.0601804535
 10
435.5705503903
 20
-186.9152422932
 10
438.6985987189
 20
-182.8959271497
 10
441.9226814155
 20
-179.0132516864
 10
445.2339614937
 20
-175.277858047
 10
448.6233629649
 20
-171.6999846856
 10
452.0815957152
 20
-168.2894383046
 10
455.5991809691
 20
-165.0555669744
 10
459.16647727
 20
-162.0072345117
 10
461.3143534155
 20
-160.280449126
  0
LWPOLYLINE
  5
BD
330
1F
100
AcDbEntity
  8
0
  6
Continuous
 62
     7
370
    25
100
AcDbPolyline
 90
       73
 70
   128
 43
0.0
 10
511.3950559117
 20
-118.2722323669
 10
513.3673635027
 20
-118.9326382724
 10
516.4344209052
 20
-120.1906565853
 10
519.372206339
 20
-121.6896265778
 10
522.1739628035
 20
-123.4261005707
 10
524.833246169
 20
-125.3960846183
 10
527.3439399986
 20
-127.5950476941
 10
529.7002696159
 20
-130.0179321126
 10
531.8968153874
 20
-132.6591651619
 10
533.9285251873
 20
-135.5126719215
 10
535.7907260181
 20
-138.5718892343
 10
537.4791347582
 20
-141.8297808024
 10
538.9898680133
 20
-145.278853371
 10
540.3194510486
 20
-148.9111739624
 10
541.4648257804
 20
-152.718388123
 10
542.4233578102
 20
-156.6917391382
 10
543.1928424836
 20
-160.8220881734
 10
543.7715099611
 20
-165.0999352933
 10
544.1580292891
 20
-169.5154413126
 10
544.3515114607
 20
-174.0584504259
 10
544.3515114607
 20
-178.7185135666
 10
544.1580292891
 20
-183.4849124402
 10
543.7715099611
 20
-188.3466841766
 10
543.1928424836
 20
-193.2926465449
 10
542.4233578102
 20
-198.3114236732
 10
541.4648257804
 20
-203.3914722133
 10
540.3194510486
 20
-208.5211078907
 10
538.9898680133
 20
-213.6885323791
 10
537.4791347582
 20
-218.8818604364
 10
535.7907260181
 20
-224.0891472418
 10
533.9285251873
 20
-229.2984158687
 10
531.8968153874
 20
-234.4976848324
 10
529.7002696159
 20
-239.6749956475
 10
527.3439399986
 20
-244.8184403334
 10
524.833246169
 20
-249.9161888024
 10
522.1739628035
 20
-254.9565160697
 10
519.372206339
 20
-259.9278292211
 10
516.4344209052
 20
-264.8186940769
 10
513.3673635027
 20
-269.6178614914
 10
510.1780884617
 20
-274.3142932256
 10
506.8739312172
 20
-278.8971873361
 10
503.4624914366
 20
-283.3560030195
 10
499.9516155408
 20
-287.6804848569
 10
496.3493786568
 20
-291.8606864015
 10
492.6640660449
 20
-295.8869930558
 10
488.9041540423
 20
-299.7501441855
 10
485.0782905669
 20
-303.4412544191
 10
481.1952752274
 20
-306.9518340848
 10
477.2640390836
 20
-310.2738087369
 10
473.2936241044
 20
-313.3995377273
 10
469.2931623717
 20
-316.3218317791
 10
465.2718550755
 20
-319.0339695224
 10
461.2389513516
 20
-321.5297129533
 10
457.2037270077
 20
-323.8033217822
 10
453.1754631891
 20
-325.8495666357
 10
449.1634250318
 20
-327.6637410852
 10
445.1768403519
 20
-329.2416724712
 10
441.2248784222
 20
-330.5797315011
 10
437.3166288815
 20
-331.6748405962
 10
433.4610808292
 20
-332.5244809704
 10
429.6671021493
 20
-333.1266984237
 10
425.9434191143
 20
-333.4801078367
 10
422.2985963145
 20
-333.5838963563
 10
418.7410169592
 20
-333.4378252657
 10
415.2788635949
 20
-333.042230533
 10
411.9200992853
 20
-332.3980220388
 10
408.6724492959
 20
-331.5066814833
 10
405.5433833258
 20
-330.3702589783
 10
402.540098327
 20
-328.991368332
 10
399.6695019512
 20
-327.3731810371
 10
396.9381966621
 20
-325.5194189762
 10
394.3524645494
 20
-323.4343458614
 10
393.4353447994
 20
-322.6065853122
  0
LWPOLYLINE
  5
BE
330
1F
100
AcDbEntity
  8
0
  6
Continuous
 62
     7
370
    25
100
AcDbPolyline
 90
       71
 70
   128
 43
0.0
 10
544.1951180411
 20
-118.6971465485
 10
546.7974841932
 20
-120.3209684638
 10
549.6318636429
 20
-122.3921768941
 10
552.3182700955
 20
-124.6929212081
 10
554.8512153767
 20
-127.218501117
 10
557.2255248245
 20
-129.9637570058
 10
559.4363478605
 20
-132.9230804739
 10
561.4791679001
 20
-136.0904257931
 10
563.349811579
 20
-139.4593222584
 10
565.0444572792
 20
-143.0228874073
 10
566.5596429369
 20
-146.7738410806
 10
567.8922731144
 20
-150.7045202946
 10
569.0396253247
 20
-154.8068948971
 10
569.999355593
 20
-159.0725839717
 10
570.7695032452
 20
-163.4928729602
 10
571.348494914
 20
-168.0587314653
 10
571.7351477524
 20
-172.7608316999
 10
571.928671851
 20
-177.5895675425
 10
571.928671851
 20
-182.5350741625
 10
571.7351477524
 20
-187.5872481733
 10
571.348494914
 20
-192.7357682728
 10
570.7695032452
 20
-197.9701163295
 10
569.999355593
 20
-203.2795988702
 10
569.0396253247
 20
-208.6533689264
 10
567.8922731144
 20
-214.0804481938
 10
566.5596429369
 20
-219.5497494603
 10
565.0444572792
 20
-225.0500992569
 10
563.349811579
 20
-230.5702606841
 10
561.4791679001
 20
-236.0989563684
 10
559.4363478605
 20
-241.6248915013
 10
557.2255248245
 20
-247.136776914
 10
554.8512153767
 20
-252.6233521405
 10
552.3182700955
 20
-258.0734084218
 10
549.6318636429
 20
-263.4758116054
 10
546.7974841932
 20
-268.819524891
 10
543.8209222214
 20
-274.0936313787
 10
540.7082586729
 20
-279.2873563711
 10
537.4658525411
 20
-284.3900893856
 10
534.1003278758
 20
-289.391405831
 10
530.6185602512
 20
-294.2810883045
 10
527.027662719
 20
-299.0491474649
 10
523.334971277
 20
-303.6858424405
 10
519.5480298823
 20
-308.1817007293
 10
515.6745750392
 20
-312.5275375504
 10
511.722519994
 20
-316.714474608
 10
507.6999385687
 20
-320.7339582298
 10
503.6150486666
 20
-324.577776841
 10
499.4761954837
 20
-328.2380777405
 10
495.29183446
 20
-331.7073831432
 10
491.0705140052
 20
-334.978605457
 10
486.8208580352
 20
-338.0450617622
 10
482.5515483536
 20
-340.9004874641
 10
478.2713069154
 20
-343.5390490918
 10
473.9888780087
 20
-345.9553562151
 10
469.7130103902
 20
-348.1444724568
 10
465.4524394127
 20
-350.101925578
 10
461.2158691783
 20
-351.8237166142
 10
457.0119547574
 20
-353.3063280448
 10
452.8492845063
 20
-354.5467309797
 10
448.7363625217
 20
-355.5423913468
 10
444.6815912675
 20
-356.2912750689
 10
440.6932544092
 20
-356.7918522196
 10
436.7794998904
 20
-357.0431001484
 10
432.9483232873
 20
-357.0445055702
 10
429.2075514741
 20
-356.7960656138
 10
425.5648266335
 20
-356.2982878278
 10
422.0275906434
 20
-355.5521891437
 10
418.6030698743
 20
-354.5592937983
 10
415.2982604259
 20
-353.3216302199
 10
412.1199138346
 20
-351.8417268844
 10
410.2060078679
 20
-350.7982416666
  0
LWPOLYLINE
  5
BF
330
1F
100
AcDbEntity
  8
0
  6
Continuous
 62
     7
370
    25
100
AcDbPolyline
 90
       97
 70
   128
 43
0.0
 10
480.0727801175
 20
-106.5054979086
 10
482.5056327353
 20
-105.7415152566
 10
486.6444859181
 20
-104.6231979868
 10
490.7293758202
 20
-103.7507031067
 10
494.7519572456
 20
-103.125813073
 10
498.7040122908
 20
-102.7498045005
 10
502.5774671339
 20
-102.6234455531
 10
506.3644085285
 20
-102.7469943748
 10
510.0570999705
 20
-103.1201985625
 10
513.6479975027
 20
-103.7422956815
 10
517.1297651273
 20
-104.6120148229
 10
520.4952897926
 20
-105.7275792004
 10
523.7376959244
 20
-107.0867097799
 10
526.8503594729
 20
-108.6866299355
 10
529.8269214447
 20
-110.524071122
 10
532.6613008944
 20
-112.5952795523
 10
535.347707347
 20
-114.8960238663
 10
537.8806526283
 20
-117.4216037752
 10
540.254962076
 20
-120.1668596639
 10
542.465785112
 20
-123.126183132
 10
544.5086051516
 20
-126.2935284512
 10
546.3792488305
 20
-129.6624249165
 10
548.0738945308
 20
-133.2259900655
 10
549.5890801884
 20
-136.9769437387
 10
550.9217103659
 20
-140.9076229527
 10
552.0690625762
 20
-145.0099975552
 10
553.0287928445
 20
-149.2756866298
 10
553.7989404967
 20
-153.6959756183
 10
554.3779321655
 20
-158.2618341235
 10
554.764585004
 20
-162.963934358
 10
554.9581091025
 20
-167.7926702006
 10
554.9581091025
 20
-172.7381768206
 10
554.764585004
 20
-177.7903508314
 10
554.3779321655
 20
-182.9388709309
 10
553.7989404967
 20
-188.1732189876
 10
553.0287928445
 20
-193.4827015284
 10
552.0690625762
 20
-198.8564715846
 10
550.9217103659
 20
-204.2835508519
 10
549.5890801884
 20
-209.7528521184
 10
548.0738945308
 20
-215.253201915
 10
546.3792488305
 20
-220.7733633422
 10
544.5086051516
 20
-226.3020590265
 10
542.465785112
 20
-231.8279941594
 10
540.254962076
 20
-237.3398795721
 10
537.8806526283
 20
-242.8264547986
 10
535.347707347
 20
-248.2765110799
 10
532.6613008944
 20
-253.6789142635
 10
529.8269214447
 20
-259.0226275492
 10
526.8503594729
 20
-264.2967340369
 10
523.7376959244
 20
-269.4904590292
 10
520.4952897926
 20
-274.5931920437
 10
517.1297651273
 20
-279.5945084891
 10
513.6479975027
 20
-284.4841909626
 10
510.0570999705
 20
-289.252250123
 10
506.3644085285
 20
-293.8889450987
 10
502.5774671338
 20
-298.3848033875
 10
498.7040122908
 20
-302.7306402085
 10
494.7519572455
 20
-306.9175772661
 10
490.7293758202
 20
-310.9370608879
 10
486.6444859181
 20
-314.7808794992
 10
482.5056327353
 20
-318.4411803986
 10
478.3212717115
 20
-321.9104858013
 10
474.0999512568
 20
-325.1817081151
 10
469.8502952867
 20
-328.2481644203
 10
465.5809856051
 20
-331.1035901223
 10
461.3007441669
 20
-333.74215175
 10
457.0183152602
 20
-336.1584588732
 10
452.7424476418
 20
-338.3475751149
 10
448.4818766642
 20
-340.3050282362
 10
444.2453064298
 20
-342.0268192723
 10
440.0413920089
 20
-343.5094307029
 10
435.8787217578
 20
-344.7498336378
 10
431.7657997732
 20
-345.7454940049
 10
427.711028519
 20
-346.494377727
 10
423.7226916607
 20
-346.9949548777
 10
419.8089371419
 20
-347.2462028065
 10
415.9777605388
 20
-347.2476082283
 10
412.2369887257
 20
-346.9991682719
 10
408.594263885
 20
-346.5013904859
 10
405.0570278949
 20
-345.7552918018
 10
401.6325071258
 20
-344.7623964564
 10
398.3276976774
 20
-343.5247328781
 10
395.1493510861
 20
-342.0448295426
 10
392.1039605319
 20
-340.3257098076
 10
389.197747573
 20
-338.3708857362
 10
386.4366494361
 20
-336.1843509221
 10
383.8263068865
 20
-333.7705723305
 10
381.3720527044
 20
-331.1344811728
 10
379.0789007905
 20
-328.2814628322
 10
376.9515359227
 20
-325.2173458617
 10
374.9943041856
 20
-321.9483900767
 10
373.2112040915
 20
-318.4812737665
 10
371.6058784116
 20
-314.823080051
 10
370.1816067344
 20
-310.9812824106
 10
368.9412987653
 20
-306.9637294175
 10
367.8874883824
 20
-302.7786287023
 10
367.5819226959
 20
-301.3664919443
  0
LWPOLYLINE
  5
C0
330
1F
100
AcDbEntity
  8
0
  6
Continuous
 62
     7
370
    25
100
AcDbPolyline
 90
       24
 70
   128
 43
0.0
 10
405.4220672688
 20
-257.7138301388
 10
406.0862093278
 20
-254.1744028274
 10
407.144609427
 20
-249.3646293395
 10
408.388785321
 20
-244.516094367
 10
409.8154376791
 20
-239.6416553531
 10
411.4207832756
 20
-234.7542384337
 10
413.2005650226
 20
-229.8668041599
 10
415.1500632588
 20
-224.9923131289
 10
417.2641082655
 20
-220.1436916145
 10
419.5370939752
 20
-215.3337972893
 10
421.9629928385
 20
-210.5753851285
 10
424.5353718077
 20
-205.8810735857
 10
427.2474093963
 20
-201.2633111311
 10
430.091913768
 20
-196.7343432407
 10
433.0613418086
 20
-192.3061799232
 10
436.1478191289
 20
-187.9905638715
 10
439.3431609457
 20
-183.7989393238
 10
442.638893787
 20
-179.7424217147
 10
446.0262779619
 20
-175.8317681997
 10
449.4963307363
 20
-172.0773491289
 10
453.0398501542
 20
-168.4891205468
 10
456.6474394391
 20
-165.0765977904
 10
460.3095319127
 20
-161.8488302568
 10
461.1936616914
 20
-161.1041271172
  0
ENDSEC
  0
SECTION
  2
OBJECTS
  0
DICTIONARY
  5
C
330
0
100
AcDbDictionary
281
     1
  3
ACAD_GROUP
350
D
  3
ACAD_LAYOUT
350
1A
  3
ACAD_MLINESTYLE
350
17
  3
ACAD_PLOTSETTINGS
350
19
  3
ACAD_PLOTSTYLENAME
350
E
  3
ACAD_SCALELIST
350
47
  0
DICTIONARY
  5
D
102
{ACAD_REACTORS
330
C
102
}
330
C
100
AcDbDictionary
281
     1
  0
DICTIONARY
  5
1A
102
{ACAD_REACTORS
330
C
102
}
330
C
100
AcDbDictionary
281
     1
  3
Layout1
350
1E
  3
Layout2
350
26
  3
Model
350
22
  0
DICTIONARY
  5
17
102
{ACAD_REACTORS
330
C
102
}
330
C
100
AcDbDictionary
281
     1
  3
Standard
350
18
  0
DICTIONARY
  5
19
102
{ACAD_REACTORS
330
C
102
}
330
C
100
AcDbDictionary
281
     1
  0
ACDBDICTIONARYWDFLT
  5
E
102
{ACAD_REACTORS
330
C
102
}
330
C
100
AcDbDictionary
281
     1
  3
Normal
350
F
100
AcDbDictionaryWithDefault
340
F
  0
DICTIONARY
  5
47
102
{ACAD_REACTORS
330
C
102
}
330
C
100
AcDbDictionary
281
     1
  3
A0
350
48
  3
A1
350
49
  3
A2
350
4A
  3
A3
350
4B
  3
A4
350
4C
  3
A5
350
4D
  3
A6
350
4E
  3
A7
350
4F
  3
A8
350
50
  3
A9
350
51
  3
B0
350
52
  3
B1
350
53
  3
B2
350
54
  3
B3
350
55
  3
B4
350
56
  3
B5
350
57
  3
B6
350
58
  3
B7
350
59
  3
B8
350
5A
  3
B9
350
5B
  3
C0
350
5C
  3
C1
350
5D
  3
C2
350
5E
  3
C3
350
5F
  3
C4
350
60
  3
C5
350
61
  3
C6
350
62
  3
C7
350
63
  3
C8
350
64
  3
C9
350
65
  3
D0
350
66
  3
D1
350
67
  3
D2
350
68
  0
LAYOUT
  5
1E
102
{ACAD_REACTORS
330
1A
102
}
330
1A
100
AcDbPlotSettings
  1

  2
none_device
  4

  6

 40
0.0
 41
0.0
 42
0.0
 43
0.0
 44
0.0
 45
0.0
 46
0.0
 47
0.0
 48
0.0
 49
0.0
140
0.0
141
0.0
142
1.0
143
1.0
 70
   688
 72
     1
 73
     0
 74
     5
  7

 75
    16
147
1.0
148
0.0
149
0.0
100
AcDbLayout
  1
Layout1
 70
     1
 71
     1
 10
0.0
 20
0.0
 11
420.0
 21
297.0
 12
0.0
 22
0.0
 32
0.0
 14
1.0000000000E+20
 24
1.0000000000E+20
 34
1.0000000000E+20
 15
-1.0000000000E+20
 25
-1.0000000000E+20
 35
-1.0000000000E+20
146
0.0
 13
0.0
 23
0.0
 33
0.0
 16
1.0
 26
0.0
 36
0.0
 17
0.0
 27
1.0
 37
0.0
 76
     0
330
1B
  0
LAYOUT
  5
26
102
{ACAD_REACTORS
330
1A
102
}
330
1A
100
AcDbPlotSettings
  1

  2
none_device
  4

  6

 40
0.0
 41
0.0
 42
0.0
 43
0.0
 44
0.0
 45
0.0
 46
0.0
 47
0.0
 48
0.0
 49
0.0
140
0.0
141
0.0
142
1.0
143
1.0
 70
   688
 72
     1
 73
     0
 74
     5
  7

 75
    16
147
1.0
148
0.0
149
0.0
100
AcDbLayout
  1
Layout2
 70
     1
 71
     2
 10
0.0
 20
0.0
 11
0.0
 21
0.0
 12
0.0
 22
0.0
 32
0.0
 14
0.0
 24
0.0
 34
0.0
 15
0.0
 25
0.0
 35
0.0
146
0.0
 13
0.0
 23
0.0
 33
0.0
 16
1.0
 26
0.0
 36
0.0
 17
0.0
 27
1.0
 37
0.0
 76
     0
330
23
  0
LAYOUT
  5
22
102
{ACAD_REACTORS
330
1A
102
}
330
1A
100
AcDbPlotSettings
  1

  2
none_device
  4
Letter_(8.50_x_11.00_Inches)
  6

 40
6.35
 41
6.35
 42
6.35000508
 43
6.35000508
 44
215.9
 45
279.4
 46
0.0
 47
0.0
 48
0.0
 49
0.0
140
0.0
141
0.0
142
1.0
143
1.0
 70
  1712
 72
     1
 73
     0
 74
     0
  7

 75
     0
147
1.0
148
0.0
149
0.0
100
AcDbLayout
  1
Model
 70
     1
 71
     0
 10
0.0
 20
0.0
 11
279.4
 21
215.9
 12
0.0
 22
0.0
 32
0.0
 14
0.0
 24
0.0
 34
0.0
 15
279.4
 25
215.9
 35
0.0
146
0.0
 13
0.0
 23
0.0
 33
0.0
 16
1.0
 26
0.0
 36
0.0
 17
0.0
 27
1.0
 37
0.0
 76
     0
330
1F
331
29
  0
MLINESTYLE
  5
18
102
{ACAD_REACTORS
330
17
102
}
330
17
100
AcDbMlineStyle
  2
Standard
 70
     0
  3

 62
   256
 51
90.0
 52
90.0
 71
     2
 49
0.5
 62
   256
  6
BYLAYER
 49
-0.5
 62
   256
  6
BYLAYER
  0
ACDBPLACEHOLDER
  5
F
102
{ACAD_REACTORS
330
E
102
}
330
E
  0
SCALE
  5
48
102
{ACAD_REACTORS
330
47
102
}
330
47
100
AcDbScale
 70
     0
300
1:1
140
1.0
141
1.0
290
     1
  0
SCALE
  5
49
102
{ACAD_REACTORS
330
47
102
}
330
47
100
AcDbScale
 70
     0
300
1:2
140
1.0
141
2.0
290
     0
  0
SCALE
  5
4A
102
{ACAD_REACTORS
330
47
102
}
330
47
100
AcDbScale
 70
     0
300
1:4
140
1.0
141
4.0
290
     0
  0
SCALE
  5
4B
102
{ACAD_REACTORS
330
47
102
}
330
47
100
AcDbScale
 70
     0
300
1:5
140
1.0
141
5.0
290
     0
  0
SCALE
  5
4C
102
{ACAD_REACTORS
330
47
102
}
330
47
100
AcDbScale
 70
     0
300
1:8
140
1.0
141
8.0
290
     0
  0
SCALE
  5
4D
102
{ACAD_REACTORS
330
47
102
}
330
47
100
AcDbScale
 70
     0
300
1:10
140
1.0
141
10.0
290
     0
  0
SCALE
  5
4E
102
{ACAD_REACTORS
330
47
102
}
330
47
100
AcDbScale
 70
     0
300
1:16
140
1.0
141
16.0
290
     0
  0
SCALE
  5
4F
102
{ACAD_REACTORS
330
47
102
}
330
47
100
AcDbScale
 70
     0
300
1:20
140
1.0
141
20.0
290
     0
  0
SCALE
  5
50
102
{ACAD_REACTORS
330
47
102
}
330
47
100
AcDbScale
 70
     0
300
1:30
140
1.0
141
30.0
290
     0
  0
SCALE
  5
51
102
{ACAD_REACTORS
330
47
102
}
330
47
100
AcDbScale
 70
     0
300
1:40
140
1.0
141
40.0
290
     0
  0
SCALE
  5
52
102
{ACAD_REACTORS
330
47
102
}
330
47
100
AcDbScale
 70
     0
300
1:50
140
1.0
141
50.0
290
     0
  0
SCALE
  5
53
102
{ACAD_REACTORS
330
47
102
}
330
47
100
AcDbScale
 70
     0
300
1:100
140
1.0
141
100.0
290
     0
  0
SCALE
  5
54
102
{ACAD_REACTORS
330
47
102
}
330
47
100
AcDbScale
 70
     0
300
2:1
140
2.0
141
1.0
290
     0
  0
SCALE
  5
55
102
{ACAD_REACTORS
330
47
102
}
330
47
100
AcDbScale
 70
     0
300
4:1
140
4.0
141
1.0
290
     0
  0
SCALE
  5
56
102
{ACAD_REACTORS
330
47
102
}
330
47
100
AcDbScale
 70
     0
300
8:1
140
8.0
141
1.0
290
     0
  0
SCALE
  5
57
102
{ACAD_REACTORS
330
47
102
}
330
47
100
AcDbScale
 70
     0
300
10:1
140
10.0
141
1.0
290
     0
  0
SCALE
  5
58
102
{ACAD_REACTORS
330
47
102
}
330
47
100
AcDbScale
 70
     0
300
100:1
140
100.0
141
1.0
290
     0
  0
SCALE
  5
59
102
{ACAD_REACTORS
330
47
102
}
330
47
100
AcDbScale
 70
     0
300
1/128" = 1'-0"
140
0.0078125
141
12.0
290
     0
  0
SCALE
  5
5A
102
{ACAD_REACTORS
330
47
102
}
330
47
100
AcDbScale
 70
     0
300
1/64" = 1'-0"
140
0.015625
141
12.0
290
     0
  0
SCALE
  5
5B
102
{ACAD_REACTORS
330
47
102
}
330
47
100
AcDbScale
 70
     0
300
1/32" = 1'-0"
140
0.03125
141
12.0
290
     0
  0
SCALE
  5
5C
102
{ACAD_REACTORS
330
47
102
}
330
47
100
AcDbScale
 70
     0
300
1/16" = 1'-0"
140
0.0625
141
12.0
290
     0
  0
SCALE
  5
5D
102
{ACAD_REACTORS
330
47
102
}
330
47
100
AcDbScale
 70
     0
300
3/32" = 1'-0"
140
0.09375
141
12.0
290
     0
  0
SCALE
  5
5E
102
{ACAD_REACTORS
330
47
102
}
330
47
100
AcDbScale
 70
     0
300
1/8" = 1'-0"
140
0.125
141
12.0
290
     0
  0
SCALE
  5
5F
102
{ACAD_REACTORS
330
47
102
}
330
47
100
AcDbScale
 70
     0
300
3/16" = 1'-0"
140
0.1875
141
12.0
290
     0
  0
SCALE
  5
60
102
{ACAD_REACTORS
330
47
102
}
330
47
100
AcDbScale
 70
     0
300
1/4" = 1'-0"
140
0.25
141
12.0
290
     0
  0
SCALE
  5
61
102
{ACAD_REACTORS
330
47
102
}
330
47
100
AcDbScale
 70
     0
300
3/8" = 1'-0"
140
0.375
141
12.0
290
     0
  0
SCALE
  5
62
102
{ACAD_REACTORS
330
47
102
}
330
47
100
AcDbScale
 70
     0
300
1/2" = 1'-0"
140
0.5
141
12.0
290
     0
  0
SCALE
  5
63
102
{ACAD_REACTORS
330
47
102
}
330
47
100
AcDbScale
 70
     0
300
3/4" = 1'-0"
140
0.75
141
12.0
290
     0
  0
SCALE
  5
64
102
{ACAD_REACTORS
330
47
102
}
330
47
100
AcDbScale
 70
     0
300
1" = 1'-0"
140
1.0
141
12.0
290
     0
  0
SCALE
  5
65
102
{ACAD_REACTORS
330
47
102
}
330
47
100
AcDbScale
 70
     0
300
1-1/2" = 1'-0"
140
1.5
141
12.0
290
     0
  0
SCALE
  5
66
102
{ACAD_REACTORS
330
47
102
}
330
47
100
AcDbScale
 70
     0
300
3" = 1'-0"
140
3.0
141
12.0
290
     0
  0
SCALE
  5
67
102
{ACAD_REACTORS
330
47
102
}
330
47
100
AcDbScale
 70
     0
300
6" = 1'-0"
140
6.0
141
12.0
290
     0
  0
SCALE
  5
68
102
{ACAD_REACTORS
330
47
102
}
330
47
100
AcDbScale
 70
     0
300
1'-0" = 1'-0"
140
12.0
141
12.0
290
     0
  0
ENDSEC
  0
EOF
